ISO-10303-21;
HEADER;
FILE_DESCRIPTION((''),'2;1');
FILE_NAME('BE_2020','2020-05-18T',('STJ945188'),(
'Nihon Parametric Technology K.K.'),'CREO PARAMETRIC BY PTC INC, 2017480',
'CREO PARAMETRIC BY PTC INC, 2017480','');
FILE_SCHEMA(('CONFIG_CONTROL_DESIGN'));
ENDSEC;
DATA;
#1=DIRECTION('',(0.E0,-1.E0,0.E0));
#2=VECTOR('',#1,3.5E0);
#3=CARTESIAN_POINT('',(-1.75E0,1.75E0,0.E0));
#4=LINE('',#3,#2);
#5=DIRECTION('',(1.E0,0.E0,0.E0));
#6=VECTOR('',#5,3.5E0);
#7=CARTESIAN_POINT('',(-1.75E0,-1.75E0,0.E0));
#8=LINE('',#7,#6);
#9=DIRECTION('',(0.E0,1.E0,0.E0));
#10=VECTOR('',#9,3.5E0);
#11=CARTESIAN_POINT('',(1.75E0,-1.75E0,0.E0));
#12=LINE('',#11,#10);
#13=DIRECTION('',(-1.E0,0.E0,0.E0));
#14=VECTOR('',#13,3.5E0);
#15=CARTESIAN_POINT('',(1.75E0,1.75E0,0.E0));
#16=LINE('',#15,#14);
#17=DIRECTION('',(1.E0,0.E0,0.E0));
#18=VECTOR('',#17,3.2E0);
#19=CARTESIAN_POINT('',(-1.6E0,1.6E0,0.E0));
#20=LINE('',#19,#18);
#21=DIRECTION('',(0.E0,-1.E0,0.E0));
#22=VECTOR('',#21,1.E0);
#23=CARTESIAN_POINT('',(1.6E0,1.6E0,0.E0));
#24=LINE('',#23,#22);
#25=DIRECTION('',(-7.071067811865E-1,-7.071067811865E-1,0.E0));
#26=VECTOR('',#25,2.828427124746E-1);
#27=CARTESIAN_POINT('',(1.6E0,6.E-1,0.E0));
#28=LINE('',#27,#26);
#29=DIRECTION('',(-1.E0,0.E0,0.E0));
#30=VECTOR('',#29,3.E0);
#31=CARTESIAN_POINT('',(1.4E0,4.E-1,0.E0));
#32=LINE('',#31,#30);
#33=DIRECTION('',(0.E0,1.E0,0.E0));
#34=VECTOR('',#33,1.2E0);
#35=CARTESIAN_POINT('',(-1.6E0,4.E-1,0.E0));
#36=LINE('',#35,#34);
#37=DIRECTION('',(1.E0,0.E0,0.E0));
#38=VECTOR('',#37,3.2E0);
#39=CARTESIAN_POINT('',(-1.6E0,-4.E-1,0.E0));
#40=LINE('',#39,#38);
#41=DIRECTION('',(0.E0,-1.E0,0.E0));
#42=VECTOR('',#41,1.2E0);
#43=CARTESIAN_POINT('',(1.6E0,-4.E-1,0.E0));
#44=LINE('',#43,#42);
#45=DIRECTION('',(-1.E0,0.E0,0.E0));
#46=VECTOR('',#45,3.2E0);
#47=CARTESIAN_POINT('',(1.6E0,-1.6E0,0.E0));
#48=LINE('',#47,#46);
#49=DIRECTION('',(0.E0,1.E0,0.E0));
#50=VECTOR('',#49,1.2E0);
#51=CARTESIAN_POINT('',(-1.6E0,-1.6E0,0.E0));
#52=LINE('',#51,#50);
#53=DIRECTION('',(0.E0,0.E0,1.E0));
#54=VECTOR('',#53,3.9E-1);
#55=CARTESIAN_POINT('',(-1.75E0,1.75E0,0.E0));
#56=LINE('',#55,#54);
#57=DIRECTION('',(0.E0,0.E0,1.E0));
#58=VECTOR('',#57,3.9E-1);
#59=CARTESIAN_POINT('',(1.75E0,1.75E0,0.E0));
#60=LINE('',#59,#58);
#61=DIRECTION('',(0.E0,0.E0,1.E0));
#62=VECTOR('',#61,3.9E-1);
#63=CARTESIAN_POINT('',(1.75E0,-1.75E0,0.E0));
#64=LINE('',#63,#62);
#65=DIRECTION('',(0.E0,0.E0,1.E0));
#66=VECTOR('',#65,3.9E-1);
#67=CARTESIAN_POINT('',(-1.75E0,-1.75E0,0.E0));
#68=LINE('',#67,#66);
#69=DIRECTION('',(0.E0,-1.E0,0.E0));
#70=VECTOR('',#69,3.5E0);
#71=CARTESIAN_POINT('',(-1.75E0,1.75E0,3.9E-1));
#72=LINE('',#71,#70);
#73=DIRECTION('',(-1.E0,0.E0,0.E0));
#74=VECTOR('',#73,3.5E0);
#75=CARTESIAN_POINT('',(1.75E0,1.75E0,3.9E-1));
#76=LINE('',#75,#74);
#77=DIRECTION('',(0.E0,1.E0,0.E0));
#78=VECTOR('',#77,3.5E0);
#79=CARTESIAN_POINT('',(1.75E0,-1.75E0,3.9E-1));
#80=LINE('',#79,#78);
#81=DIRECTION('',(1.E0,0.E0,0.E0));
#82=VECTOR('',#81,3.5E0);
#83=CARTESIAN_POINT('',(-1.75E0,-1.75E0,3.9E-1));
#84=LINE('',#83,#82);
#85=DIRECTION('',(0.E0,-1.E0,0.E0));
#86=VECTOR('',#85,3.4E0);
#87=CARTESIAN_POINT('',(-1.7E0,1.7E0,3.9E-1));
#88=LINE('',#87,#86);
#89=DIRECTION('',(1.E0,0.E0,0.E0));
#90=VECTOR('',#89,3.4E0);
#91=CARTESIAN_POINT('',(-1.7E0,-1.7E0,3.9E-1));
#92=LINE('',#91,#90);
#93=DIRECTION('',(0.E0,1.E0,0.E0));
#94=VECTOR('',#93,3.4E0);
#95=CARTESIAN_POINT('',(1.7E0,-1.7E0,3.9E-1));
#96=LINE('',#95,#94);
#97=DIRECTION('',(-1.E0,0.E0,0.E0));
#98=VECTOR('',#97,3.4E0);
#99=CARTESIAN_POINT('',(1.7E0,1.7E0,3.9E-1));
#100=LINE('',#99,#98);
#101=DIRECTION('',(0.E0,0.E0,1.E0));
#102=VECTOR('',#101,3.E-1);
#103=CARTESIAN_POINT('',(-1.7E0,1.7E0,3.9E-1));
#104=LINE('',#103,#102);
#105=DIRECTION('',(0.E0,0.E0,1.E0));
#106=VECTOR('',#105,3.E-1);
#107=CARTESIAN_POINT('',(1.7E0,1.7E0,3.9E-1));
#108=LINE('',#107,#106);
#109=DIRECTION('',(0.E0,0.E0,1.E0));
#110=VECTOR('',#109,3.E-1);
#111=CARTESIAN_POINT('',(1.7E0,-1.7E0,3.9E-1));
#112=LINE('',#111,#110);
#113=DIRECTION('',(0.E0,0.E0,1.E0));
#114=VECTOR('',#113,3.E-1);
#115=CARTESIAN_POINT('',(-1.7E0,-1.7E0,3.9E-1));
#116=LINE('',#115,#114);
#117=DIRECTION('',(0.E0,-1.E0,0.E0));
#118=VECTOR('',#117,3.4E0);
#119=CARTESIAN_POINT('',(-1.7E0,1.7E0,6.9E-1));
#120=LINE('',#119,#118);
#121=DIRECTION('',(-1.E0,0.E0,0.E0));
#122=VECTOR('',#121,3.4E0);
#123=CARTESIAN_POINT('',(1.7E0,1.7E0,6.9E-1));
#124=LINE('',#123,#122);
#125=DIRECTION('',(0.E0,1.E0,0.E0));
#126=VECTOR('',#125,3.4E0);
#127=CARTESIAN_POINT('',(1.7E0,-1.7E0,6.9E-1));
#128=LINE('',#127,#126);
#129=DIRECTION('',(1.E0,0.E0,0.E0));
#130=VECTOR('',#129,3.4E0);
#131=CARTESIAN_POINT('',(-1.7E0,-1.7E0,6.9E-1));
#132=LINE('',#131,#130);
#133=CARTESIAN_POINT('',(0.E0,0.E0,6.9E-1));
#134=DIRECTION('',(0.E0,0.E0,1.E0));
#135=DIRECTION('',(-1.E0,0.E0,0.E0));
#136=AXIS2_PLACEMENT_3D('',#133,#134,#135);
#138=CARTESIAN_POINT('',(0.E0,0.E0,6.9E-1));
#139=DIRECTION('',(0.E0,0.E0,1.E0));
#140=DIRECTION('',(1.E0,0.E0,0.E0));
#141=AXIS2_PLACEMENT_3D('',#138,#139,#140);
#143=CARTESIAN_POINT('',(0.E0,0.E0,6.9E-1));
#144=DIRECTION('',(0.E0,-1.E0,0.E0));
#145=DIRECTION('',(1.E0,0.E0,0.E0));
#146=AXIS2_PLACEMENT_3D('',#143,#144,#145);
#148=CARTESIAN_POINT('',(0.E0,0.E0,6.9E-1));
#149=DIRECTION('',(0.E0,1.E0,0.E0));
#150=DIRECTION('',(-1.E0,0.E0,0.E0));
#151=AXIS2_PLACEMENT_3D('',#148,#149,#150);
#153=DIRECTION('',(0.E0,0.E0,-1.E0));
#154=VECTOR('',#153,5.E-3);
#155=CARTESIAN_POINT('',(-1.6E0,1.6E0,0.E0));
#156=LINE('',#155,#154);
#157=DIRECTION('',(0.E0,0.E0,-1.E0));
#158=VECTOR('',#157,5.E-3);
#159=CARTESIAN_POINT('',(-1.6E0,4.E-1,0.E0));
#160=LINE('',#159,#158);
#161=DIRECTION('',(0.E0,0.E0,-1.E0));
#162=VECTOR('',#161,5.E-3);
#163=CARTESIAN_POINT('',(1.4E0,4.E-1,0.E0));
#164=LINE('',#163,#162);
#165=DIRECTION('',(0.E0,0.E0,-1.E0));
#166=VECTOR('',#165,5.E-3);
#167=CARTESIAN_POINT('',(1.6E0,6.E-1,0.E0));
#168=LINE('',#167,#166);
#169=DIRECTION('',(0.E0,0.E0,-1.E0));
#170=VECTOR('',#169,5.E-3);
#171=CARTESIAN_POINT('',(1.6E0,1.6E0,0.E0));
#172=LINE('',#171,#170);
#173=DIRECTION('',(1.E0,0.E0,0.E0));
#174=VECTOR('',#173,3.2E0);
#175=CARTESIAN_POINT('',(-1.6E0,1.6E0,-5.E-3));
#176=LINE('',#175,#174);
#177=DIRECTION('',(0.E0,1.E0,0.E0));
#178=VECTOR('',#177,1.2E0);
#179=CARTESIAN_POINT('',(-1.6E0,4.E-1,-5.E-3));
#180=LINE('',#179,#178);
#181=DIRECTION('',(-1.E0,0.E0,0.E0));
#182=VECTOR('',#181,3.E0);
#183=CARTESIAN_POINT('',(1.4E0,4.E-1,-5.E-3));
#184=LINE('',#183,#182);
#185=DIRECTION('',(-7.071067811865E-1,-7.071067811865E-1,0.E0));
#186=VECTOR('',#185,2.828427124746E-1);
#187=CARTESIAN_POINT('',(1.6E0,6.E-1,-5.E-3));
#188=LINE('',#187,#186);
#189=DIRECTION('',(0.E0,-1.E0,0.E0));
#190=VECTOR('',#189,1.E0);
#191=CARTESIAN_POINT('',(1.6E0,1.6E0,-5.E-3));
#192=LINE('',#191,#190);
#193=DIRECTION('',(1.E0,0.E0,0.E0));
#194=VECTOR('',#193,3.2E0);
#195=CARTESIAN_POINT('',(-1.6E0,-4.E-1,-5.E-3));
#196=LINE('',#195,#194);
#197=DIRECTION('',(0.E0,1.E0,0.E0));
#198=VECTOR('',#197,1.2E0);
#199=CARTESIAN_POINT('',(-1.6E0,-1.6E0,-5.E-3));
#200=LINE('',#199,#198);
#201=DIRECTION('',(-1.E0,0.E0,0.E0));
#202=VECTOR('',#201,3.2E0);
#203=CARTESIAN_POINT('',(1.6E0,-1.6E0,-5.E-3));
#204=LINE('',#203,#202);
#205=DIRECTION('',(0.E0,-1.E0,0.E0));
#206=VECTOR('',#205,1.2E0);
#207=CARTESIAN_POINT('',(1.6E0,-4.E-1,-5.E-3));
#208=LINE('',#207,#206);
#209=DIRECTION('',(0.E0,0.E0,-1.E0));
#210=VECTOR('',#209,5.E-3);
#211=CARTESIAN_POINT('',(-1.6E0,-4.E-1,0.E0));
#212=LINE('',#211,#210);
#213=DIRECTION('',(0.E0,0.E0,-1.E0));
#214=VECTOR('',#213,5.E-3);
#215=CARTESIAN_POINT('',(-1.6E0,-1.6E0,0.E0));
#216=LINE('',#215,#214);
#217=DIRECTION('',(0.E0,0.E0,-1.E0));
#218=VECTOR('',#217,5.E-3);
#219=CARTESIAN_POINT('',(1.6E0,-1.6E0,0.E0));
#220=LINE('',#219,#218);
#221=DIRECTION('',(0.E0,0.E0,-1.E0));
#222=VECTOR('',#221,5.E-3);
#223=CARTESIAN_POINT('',(1.6E0,-4.E-1,0.E0));
#224=LINE('',#223,#222);
#225=CARTESIAN_POINT('',(-1.75E0,1.75E0,0.E0));
#226=CARTESIAN_POINT('',(-1.75E0,-1.75E0,0.E0));
#227=VERTEX_POINT('',#225);
#228=VERTEX_POINT('',#226);
#229=CARTESIAN_POINT('',(1.75E0,-1.75E0,0.E0));
#230=VERTEX_POINT('',#229);
#231=CARTESIAN_POINT('',(1.75E0,1.75E0,0.E0));
#232=VERTEX_POINT('',#231);
#233=CARTESIAN_POINT('',(-1.75E0,1.75E0,3.9E-1));
#234=CARTESIAN_POINT('',(-1.75E0,-1.75E0,3.9E-1));
#235=VERTEX_POINT('',#233);
#236=VERTEX_POINT('',#234);
#237=CARTESIAN_POINT('',(1.75E0,-1.75E0,3.9E-1));
#238=VERTEX_POINT('',#237);
#239=CARTESIAN_POINT('',(1.75E0,1.75E0,3.9E-1));
#240=VERTEX_POINT('',#239);
#241=CARTESIAN_POINT('',(-1.7E0,1.7E0,6.9E-1));
#242=CARTESIAN_POINT('',(-1.7E0,-1.7E0,6.9E-1));
#243=VERTEX_POINT('',#241);
#244=VERTEX_POINT('',#242);
#245=CARTESIAN_POINT('',(1.7E0,-1.7E0,6.9E-1));
#246=VERTEX_POINT('',#245);
#247=CARTESIAN_POINT('',(1.7E0,1.7E0,6.9E-1));
#248=VERTEX_POINT('',#247);
#249=CARTESIAN_POINT('',(-1.7E0,1.7E0,3.9E-1));
#250=CARTESIAN_POINT('',(-1.7E0,-1.7E0,3.9E-1));
#251=VERTEX_POINT('',#249);
#252=VERTEX_POINT('',#250);
#253=CARTESIAN_POINT('',(1.7E0,-1.7E0,3.9E-1));
#254=VERTEX_POINT('',#253);
#255=CARTESIAN_POINT('',(1.7E0,1.7E0,3.9E-1));
#256=VERTEX_POINT('',#255);
#257=CARTESIAN_POINT('',(-1.55E0,0.E0,6.9E-1));
#258=CARTESIAN_POINT('',(1.55E0,0.E0,6.9E-1));
#259=VERTEX_POINT('',#257);
#260=VERTEX_POINT('',#258);
#261=CARTESIAN_POINT('',(0.E0,0.E0,2.24E0));
#262=VERTEX_POINT('',#261);
#263=CARTESIAN_POINT('',(-1.6E0,1.6E0,-5.E-3));
#264=CARTESIAN_POINT('',(1.6E0,1.6E0,-5.E-3));
#265=VERTEX_POINT('',#263);
#266=VERTEX_POINT('',#264);
#267=CARTESIAN_POINT('',(1.6E0,6.E-1,-5.E-3));
#268=VERTEX_POINT('',#267);
#269=CARTESIAN_POINT('',(1.4E0,4.E-1,-5.E-3));
#270=VERTEX_POINT('',#269);
#271=CARTESIAN_POINT('',(-1.6E0,4.E-1,-5.E-3));
#272=VERTEX_POINT('',#271);
#273=CARTESIAN_POINT('',(-1.6E0,-4.E-1,-5.E-3));
#274=CARTESIAN_POINT('',(1.6E0,-4.E-1,-5.E-3));
#275=VERTEX_POINT('',#273);
#276=VERTEX_POINT('',#274);
#277=CARTESIAN_POINT('',(1.6E0,-1.6E0,-5.E-3));
#278=VERTEX_POINT('',#277);
#279=CARTESIAN_POINT('',(-1.6E0,-1.6E0,-5.E-3));
#280=VERTEX_POINT('',#279);
#281=CARTESIAN_POINT('',(-1.6E0,1.6E0,0.E0));
#282=CARTESIAN_POINT('',(1.6E0,1.6E0,0.E0));
#283=VERTEX_POINT('',#281);
#284=VERTEX_POINT('',#282);
#285=CARTESIAN_POINT('',(1.6E0,6.E-1,0.E0));
#286=VERTEX_POINT('',#285);
#287=CARTESIAN_POINT('',(1.4E0,4.E-1,0.E0));
#288=VERTEX_POINT('',#287);
#289=CARTESIAN_POINT('',(-1.6E0,4.E-1,0.E0));
#290=VERTEX_POINT('',#289);
#291=CARTESIAN_POINT('',(-1.6E0,-4.E-1,0.E0));
#292=CARTESIAN_POINT('',(1.6E0,-4.E-1,0.E0));
#293=VERTEX_POINT('',#291);
#294=VERTEX_POINT('',#292);
#295=CARTESIAN_POINT('',(1.6E0,-1.6E0,0.E0));
#296=VERTEX_POINT('',#295);
#297=CARTESIAN_POINT('',(-1.6E0,-1.6E0,0.E0));
#298=VERTEX_POINT('',#297);
#299=CARTESIAN_POINT('',(0.E0,0.E0,0.E0));
#300=DIRECTION('',(0.E0,0.E0,1.E0));
#301=DIRECTION('',(1.E0,0.E0,0.E0));
#302=AXIS2_PLACEMENT_3D('',#299,#300,#301);
#303=PLANE('',#302);
#305=ORIENTED_EDGE('',*,*,#304,.T.);
#307=ORIENTED_EDGE('',*,*,#306,.T.);
#309=ORIENTED_EDGE('',*,*,#308,.T.);
#311=ORIENTED_EDGE('',*,*,#310,.T.);
#312=EDGE_LOOP('',(#305,#307,#309,#311));
#313=FACE_OUTER_BOUND('',#312,.F.);
#315=ORIENTED_EDGE('',*,*,#314,.T.);
#317=ORIENTED_EDGE('',*,*,#316,.T.);
#319=ORIENTED_EDGE('',*,*,#318,.T.);
#321=ORIENTED_EDGE('',*,*,#320,.T.);
#323=ORIENTED_EDGE('',*,*,#322,.T.);
#324=EDGE_LOOP('',(#315,#317,#319,#321,#323));
#325=FACE_BOUND('',#324,.F.);
#327=ORIENTED_EDGE('',*,*,#326,.T.);
#329=ORIENTED_EDGE('',*,*,#328,.T.);
#331=ORIENTED_EDGE('',*,*,#330,.T.);
#333=ORIENTED_EDGE('',*,*,#332,.T.);
#334=EDGE_LOOP('',(#327,#329,#331,#333));
#335=FACE_BOUND('',#334,.F.);
#336=ADVANCED_FACE('',(#313,#325,#335),#303,.F.);
#337=CARTESIAN_POINT('',(-1.75E0,1.75E0,0.E0));
#338=DIRECTION('',(-1.E0,0.E0,0.E0));
#339=DIRECTION('',(0.E0,-1.E0,0.E0));
#340=AXIS2_PLACEMENT_3D('',#337,#338,#339);
#341=PLANE('',#340);
#342=ORIENTED_EDGE('',*,*,#304,.F.);
#344=ORIENTED_EDGE('',*,*,#343,.T.);
#346=ORIENTED_EDGE('',*,*,#345,.T.);
#348=ORIENTED_EDGE('',*,*,#347,.F.);
#349=EDGE_LOOP('',(#342,#344,#346,#348));
#350=FACE_OUTER_BOUND('',#349,.F.);
#351=ADVANCED_FACE('',(#350),#341,.T.);
#352=CARTESIAN_POINT('',(1.75E0,1.75E0,0.E0));
#353=DIRECTION('',(0.E0,1.E0,0.E0));
#354=DIRECTION('',(-1.E0,0.E0,0.E0));
#355=AXIS2_PLACEMENT_3D('',#352,#353,#354);
#356=PLANE('',#355);
#357=ORIENTED_EDGE('',*,*,#310,.F.);
#359=ORIENTED_EDGE('',*,*,#358,.T.);
#361=ORIENTED_EDGE('',*,*,#360,.T.);
#362=ORIENTED_EDGE('',*,*,#343,.F.);
#363=EDGE_LOOP('',(#357,#359,#361,#362));
#364=FACE_OUTER_BOUND('',#363,.F.);
#365=ADVANCED_FACE('',(#364),#356,.T.);
#366=CARTESIAN_POINT('',(1.75E0,-1.75E0,0.E0));
#367=DIRECTION('',(1.E0,0.E0,0.E0));
#368=DIRECTION('',(0.E0,1.E0,0.E0));
#369=AXIS2_PLACEMENT_3D('',#366,#367,#368);
#370=PLANE('',#369);
#371=ORIENTED_EDGE('',*,*,#308,.F.);
#373=ORIENTED_EDGE('',*,*,#372,.T.);
#375=ORIENTED_EDGE('',*,*,#374,.T.);
#376=ORIENTED_EDGE('',*,*,#358,.F.);
#377=EDGE_LOOP('',(#371,#373,#375,#376));
#378=FACE_OUTER_BOUND('',#377,.F.);
#379=ADVANCED_FACE('',(#378),#370,.T.);
#380=CARTESIAN_POINT('',(-1.75E0,-1.75E0,0.E0));
#381=DIRECTION('',(0.E0,-1.E0,0.E0));
#382=DIRECTION('',(1.E0,0.E0,0.E0));
#383=AXIS2_PLACEMENT_3D('',#380,#381,#382);
#384=PLANE('',#383);
#385=ORIENTED_EDGE('',*,*,#306,.F.);
#386=ORIENTED_EDGE('',*,*,#347,.T.);
#388=ORIENTED_EDGE('',*,*,#387,.T.);
#389=ORIENTED_EDGE('',*,*,#372,.F.);
#390=EDGE_LOOP('',(#385,#386,#388,#389));
#391=FACE_OUTER_BOUND('',#390,.F.);
#392=ADVANCED_FACE('',(#391),#384,.T.);
#393=CARTESIAN_POINT('',(0.E0,0.E0,3.9E-1));
#394=DIRECTION('',(0.E0,0.E0,1.E0));
#395=DIRECTION('',(1.E0,0.E0,0.E0));
#396=AXIS2_PLACEMENT_3D('',#393,#394,#395);
#397=PLANE('',#396);
#398=ORIENTED_EDGE('',*,*,#345,.F.);
#399=ORIENTED_EDGE('',*,*,#360,.F.);
#400=ORIENTED_EDGE('',*,*,#374,.F.);
#401=ORIENTED_EDGE('',*,*,#387,.F.);
#402=EDGE_LOOP('',(#398,#399,#400,#401));
#403=FACE_OUTER_BOUND('',#402,.F.);
#405=ORIENTED_EDGE('',*,*,#404,.T.);
#407=ORIENTED_EDGE('',*,*,#406,.T.);
#409=ORIENTED_EDGE('',*,*,#408,.T.);
#411=ORIENTED_EDGE('',*,*,#410,.T.);
#412=EDGE_LOOP('',(#405,#407,#409,#411));
#413=FACE_BOUND('',#412,.F.);
#414=ADVANCED_FACE('',(#403,#413),#397,.T.);
#415=CARTESIAN_POINT('',(-1.7E0,1.7E0,3.9E-1));
#416=DIRECTION('',(-1.E0,0.E0,0.E0));
#417=DIRECTION('',(0.E0,-1.E0,0.E0));
#418=AXIS2_PLACEMENT_3D('',#415,#416,#417);
#419=PLANE('',#418);
#420=ORIENTED_EDGE('',*,*,#404,.F.);
#422=ORIENTED_EDGE('',*,*,#421,.T.);
#424=ORIENTED_EDGE('',*,*,#423,.T.);
#426=ORIENTED_EDGE('',*,*,#425,.F.);
#427=EDGE_LOOP('',(#420,#422,#424,#426));
#428=FACE_OUTER_BOUND('',#427,.F.);
#429=ADVANCED_FACE('',(#428),#419,.T.);
#430=CARTESIAN_POINT('',(1.7E0,1.7E0,3.9E-1));
#431=DIRECTION('',(0.E0,1.E0,0.E0));
#432=DIRECTION('',(-1.E0,0.E0,0.E0));
#433=AXIS2_PLACEMENT_3D('',#430,#431,#432);
#434=PLANE('',#433);
#435=ORIENTED_EDGE('',*,*,#410,.F.);
#437=ORIENTED_EDGE('',*,*,#436,.T.);
#439=ORIENTED_EDGE('',*,*,#438,.T.);
#440=ORIENTED_EDGE('',*,*,#421,.F.);
#441=EDGE_LOOP('',(#435,#437,#439,#440));
#442=FACE_OUTER_BOUND('',#441,.F.);
#443=ADVANCED_FACE('',(#442),#434,.T.);
#444=CARTESIAN_POINT('',(1.7E0,-1.7E0,3.9E-1));
#445=DIRECTION('',(1.E0,0.E0,0.E0));
#446=DIRECTION('',(0.E0,1.E0,0.E0));
#447=AXIS2_PLACEMENT_3D('',#444,#445,#446);
#448=PLANE('',#447);
#449=ORIENTED_EDGE('',*,*,#408,.F.);
#451=ORIENTED_EDGE('',*,*,#450,.T.);
#453=ORIENTED_EDGE('',*,*,#452,.T.);
#454=ORIENTED_EDGE('',*,*,#436,.F.);
#455=EDGE_LOOP('',(#449,#451,#453,#454));
#456=FACE_OUTER_BOUND('',#455,.F.);
#457=ADVANCED_FACE('',(#456),#448,.T.);
#458=CARTESIAN_POINT('',(-1.7E0,-1.7E0,3.9E-1));
#459=DIRECTION('',(0.E0,-1.E0,0.E0));
#460=DIRECTION('',(1.E0,0.E0,0.E0));
#461=AXIS2_PLACEMENT_3D('',#458,#459,#460);
#462=PLANE('',#461);
#463=ORIENTED_EDGE('',*,*,#406,.F.);
#464=ORIENTED_EDGE('',*,*,#425,.T.);
#466=ORIENTED_EDGE('',*,*,#465,.T.);
#467=ORIENTED_EDGE('',*,*,#450,.F.);
#468=EDGE_LOOP('',(#463,#464,#466,#467));
#469=FACE_OUTER_BOUND('',#468,.F.);
#470=ADVANCED_FACE('',(#469),#462,.T.);
#471=CARTESIAN_POINT('',(0.E0,0.E0,6.9E-1));
#472=DIRECTION('',(0.E0,0.E0,1.E0));
#473=DIRECTION('',(1.E0,0.E0,0.E0));
#474=AXIS2_PLACEMENT_3D('',#471,#472,#473);
#475=PLANE('',#474);
#476=ORIENTED_EDGE('',*,*,#423,.F.);
#477=ORIENTED_EDGE('',*,*,#438,.F.);
#478=ORIENTED_EDGE('',*,*,#452,.F.);
#479=ORIENTED_EDGE('',*,*,#465,.F.);
#480=EDGE_LOOP('',(#476,#477,#478,#479));
#481=FACE_OUTER_BOUND('',#480,.F.);
#483=ORIENTED_EDGE('',*,*,#482,.T.);
#485=ORIENTED_EDGE('',*,*,#484,.T.);
#486=EDGE_LOOP('',(#483,#485));
#487=FACE_BOUND('',#486,.F.);
#488=ADVANCED_FACE('',(#481,#487),#475,.T.);
#489=CARTESIAN_POINT('',(0.E0,0.E0,6.9E-1));
#490=DIRECTION('',(0.E0,0.E0,1.E0));
#491=DIRECTION('',(-1.E0,0.E0,0.E0));
#492=AXIS2_PLACEMENT_3D('',#489,#490,#491);
#493=SPHERICAL_SURFACE('',#492,1.55E0);
#494=ORIENTED_EDGE('',*,*,#482,.F.);
#496=ORIENTED_EDGE('',*,*,#495,.T.);
#498=ORIENTED_EDGE('',*,*,#497,.F.);
#499=EDGE_LOOP('',(#494,#496,#498));
#500=FACE_OUTER_BOUND('',#499,.F.);
#501=ADVANCED_FACE('',(#500),#493,.T.);
#502=CARTESIAN_POINT('',(0.E0,0.E0,6.9E-1));
#503=DIRECTION('',(0.E0,0.E0,1.E0));
#504=DIRECTION('',(-1.E0,0.E0,0.E0));
#505=AXIS2_PLACEMENT_3D('',#502,#503,#504);
#506=SPHERICAL_SURFACE('',#505,1.55E0);
#507=ORIENTED_EDGE('',*,*,#484,.F.);
#508=ORIENTED_EDGE('',*,*,#497,.T.);
#509=ORIENTED_EDGE('',*,*,#495,.F.);
#510=EDGE_LOOP('',(#507,#508,#509));
#511=FACE_OUTER_BOUND('',#510,.F.);
#512=ADVANCED_FACE('',(#511),#506,.T.);
#513=CARTESIAN_POINT('',(-1.6E0,1.6E0,0.E0));
#514=DIRECTION('',(0.E0,1.E0,0.E0));
#515=DIRECTION('',(1.E0,0.E0,0.E0));
#516=AXIS2_PLACEMENT_3D('',#513,#514,#515);
#517=PLANE('',#516);
#518=ORIENTED_EDGE('',*,*,#314,.F.);
#520=ORIENTED_EDGE('',*,*,#519,.T.);
#522=ORIENTED_EDGE('',*,*,#521,.T.);
#524=ORIENTED_EDGE('',*,*,#523,.F.);
#525=EDGE_LOOP('',(#518,#520,#522,#524));
#526=FACE_OUTER_BOUND('',#525,.F.);
#527=ADVANCED_FACE('',(#526),#517,.T.);
#528=CARTESIAN_POINT('',(-1.6E0,4.E-1,0.E0));
#529=DIRECTION('',(-1.E0,0.E0,0.E0));
#530=DIRECTION('',(0.E0,1.E0,0.E0));
#531=AXIS2_PLACEMENT_3D('',#528,#529,#530);
#532=PLANE('',#531);
#533=ORIENTED_EDGE('',*,*,#322,.F.);
#535=ORIENTED_EDGE('',*,*,#534,.T.);
#537=ORIENTED_EDGE('',*,*,#536,.T.);
#538=ORIENTED_EDGE('',*,*,#519,.F.);
#539=EDGE_LOOP('',(#533,#535,#537,#538));
#540=FACE_OUTER_BOUND('',#539,.F.);
#541=ADVANCED_FACE('',(#540),#532,.T.);
#542=CARTESIAN_POINT('',(1.4E0,4.E-1,0.E0));
#543=DIRECTION('',(0.E0,-1.E0,0.E0));
#544=DIRECTION('',(-1.E0,0.E0,0.E0));
#545=AXIS2_PLACEMENT_3D('',#542,#543,#544);
#546=PLANE('',#545);
#547=ORIENTED_EDGE('',*,*,#320,.F.);
#549=ORIENTED_EDGE('',*,*,#548,.T.);
#551=ORIENTED_EDGE('',*,*,#550,.T.);
#552=ORIENTED_EDGE('',*,*,#534,.F.);
#553=EDGE_LOOP('',(#547,#549,#551,#552));
#554=FACE_OUTER_BOUND('',#553,.F.);
#555=ADVANCED_FACE('',(#554),#546,.T.);
#556=CARTESIAN_POINT('',(1.6E0,6.E-1,0.E0));
#557=DIRECTION('',(7.071067811865E-1,-7.071067811865E-1,0.E0));
#558=DIRECTION('',(-7.071067811865E-1,-7.071067811865E-1,0.E0));
#559=AXIS2_PLACEMENT_3D('',#556,#557,#558);
#560=PLANE('',#559);
#561=ORIENTED_EDGE('',*,*,#318,.F.);
#563=ORIENTED_EDGE('',*,*,#562,.T.);
#565=ORIENTED_EDGE('',*,*,#564,.T.);
#566=ORIENTED_EDGE('',*,*,#548,.F.);
#567=EDGE_LOOP('',(#561,#563,#565,#566));
#568=FACE_OUTER_BOUND('',#567,.F.);
#569=ADVANCED_FACE('',(#568),#560,.T.);
#570=CARTESIAN_POINT('',(1.6E0,1.6E0,0.E0));
#571=DIRECTION('',(1.E0,0.E0,0.E0));
#572=DIRECTION('',(0.E0,-1.E0,0.E0));
#573=AXIS2_PLACEMENT_3D('',#570,#571,#572);
#574=PLANE('',#573);
#575=ORIENTED_EDGE('',*,*,#316,.F.);
#576=ORIENTED_EDGE('',*,*,#523,.T.);
#578=ORIENTED_EDGE('',*,*,#577,.T.);
#579=ORIENTED_EDGE('',*,*,#562,.F.);
#580=EDGE_LOOP('',(#575,#576,#578,#579));
#581=FACE_OUTER_BOUND('',#580,.F.);
#582=ADVANCED_FACE('',(#581),#574,.T.);
#583=CARTESIAN_POINT('',(0.E0,0.E0,-5.E-3));
#584=DIRECTION('',(0.E0,0.E0,-1.E0));
#585=DIRECTION('',(0.E0,-1.E0,0.E0));
#586=AXIS2_PLACEMENT_3D('',#583,#584,#585);
#587=PLANE('',#586);
#588=ORIENTED_EDGE('',*,*,#521,.F.);
#589=ORIENTED_EDGE('',*,*,#536,.F.);
#590=ORIENTED_EDGE('',*,*,#550,.F.);
#591=ORIENTED_EDGE('',*,*,#564,.F.);
#592=ORIENTED_EDGE('',*,*,#577,.F.);
#593=EDGE_LOOP('',(#588,#589,#590,#591,#592));
#594=FACE_OUTER_BOUND('',#593,.F.);
#595=ADVANCED_FACE('',(#594),#587,.T.);
#596=CARTESIAN_POINT('',(0.E0,0.E0,-5.E-3));
#597=DIRECTION('',(0.E0,0.E0,-1.E0));
#598=DIRECTION('',(0.E0,-1.E0,0.E0));
#599=AXIS2_PLACEMENT_3D('',#596,#597,#598);
#600=PLANE('',#599);
#602=ORIENTED_EDGE('',*,*,#601,.F.);
#604=ORIENTED_EDGE('',*,*,#603,.F.);
#606=ORIENTED_EDGE('',*,*,#605,.F.);
#608=ORIENTED_EDGE('',*,*,#607,.F.);
#609=EDGE_LOOP('',(#602,#604,#606,#608));
#610=FACE_OUTER_BOUND('',#609,.F.);
#611=ADVANCED_FACE('',(#610),#600,.T.);
#612=CARTESIAN_POINT('',(-1.6E0,-4.E-1,0.E0));
#613=DIRECTION('',(0.E0,1.E0,0.E0));
#614=DIRECTION('',(1.E0,0.E0,0.E0));
#615=AXIS2_PLACEMENT_3D('',#612,#613,#614);
#616=PLANE('',#615);
#617=ORIENTED_EDGE('',*,*,#326,.F.);
#619=ORIENTED_EDGE('',*,*,#618,.T.);
#620=ORIENTED_EDGE('',*,*,#601,.T.);
#622=ORIENTED_EDGE('',*,*,#621,.F.);
#623=EDGE_LOOP('',(#617,#619,#620,#622));
#624=FACE_OUTER_BOUND('',#623,.F.);
#625=ADVANCED_FACE('',(#624),#616,.T.);
#626=CARTESIAN_POINT('',(-1.6E0,-1.6E0,0.E0));
#627=DIRECTION('',(-1.E0,0.E0,0.E0));
#628=DIRECTION('',(0.E0,1.E0,0.E0));
#629=AXIS2_PLACEMENT_3D('',#626,#627,#628);
#630=PLANE('',#629);
#631=ORIENTED_EDGE('',*,*,#332,.F.);
#633=ORIENTED_EDGE('',*,*,#632,.T.);
#634=ORIENTED_EDGE('',*,*,#603,.T.);
#635=ORIENTED_EDGE('',*,*,#618,.F.);
#636=EDGE_LOOP('',(#631,#633,#634,#635));
#637=FACE_OUTER_BOUND('',#636,.F.);
#638=ADVANCED_FACE('',(#637),#630,.T.);
#639=CARTESIAN_POINT('',(1.6E0,-1.6E0,0.E0));
#640=DIRECTION('',(0.E0,-1.E0,0.E0));
#641=DIRECTION('',(-1.E0,0.E0,0.E0));
#642=AXIS2_PLACEMENT_3D('',#639,#640,#641);
#643=PLANE('',#642);
#644=ORIENTED_EDGE('',*,*,#330,.F.);
#646=ORIENTED_EDGE('',*,*,#645,.T.);
#647=ORIENTED_EDGE('',*,*,#605,.T.);
#648=ORIENTED_EDGE('',*,*,#632,.F.);
#649=EDGE_LOOP('',(#644,#646,#647,#648));
#650=FACE_OUTER_BOUND('',#649,.F.);
#651=ADVANCED_FACE('',(#650),#643,.T.);
#652=CARTESIAN_POINT('',(1.6E0,-4.E-1,0.E0));
#653=DIRECTION('',(1.E0,0.E0,0.E0));
#654=DIRECTION('',(0.E0,-1.E0,0.E0));
#655=AXIS2_PLACEMENT_3D('',#652,#653,#654);
#656=PLANE('',#655);
#657=ORIENTED_EDGE('',*,*,#328,.F.);
#658=ORIENTED_EDGE('',*,*,#621,.T.);
#659=ORIENTED_EDGE('',*,*,#607,.T.);
#660=ORIENTED_EDGE('',*,*,#645,.F.);
#661=EDGE_LOOP('',(#657,#658,#659,#660));
#662=FACE_OUTER_BOUND('',#661,.F.);
#663=ADVANCED_FACE('',(#662),#656,.T.);
#664=CLOSED_SHELL('',(#336,#351,#365,#379,#392,#414,#429,#443,#457,#470,#488,
#501,#512,#527,#541,#555,#569,#582,#595,#611,#625,#638,#651,#663));
#665=MANIFOLD_SOLID_BREP('',#664);
#667=DIMENSIONAL_EXPONENTS(0.E0,0.E0,0.E0,0.E0,0.E0,0.E0,0.E0);
#669=PLANE_ANGLE_MEASURE_WITH_UNIT(PLANE_ANGLE_MEASURE(1.745329251994E-2),#668);
#670=(CONVERSION_BASED_UNIT('DEGREE',#669)NAMED_UNIT(*)PLANE_ANGLE_UNIT());
#672=UNCERTAINTY_MEASURE_WITH_UNIT(LENGTH_MEASURE(5.434856193614E-4),#666,
'closure',
'Maximum model space distance between geometric entities at asserted connectivities');
#673=(GEOMETRIC_REPRESENTATION_CONTEXT(3)GLOBAL_UNCERTAINTY_ASSIGNED_CONTEXT((
#672))GLOBAL_UNIT_ASSIGNED_CONTEXT((#666,#670,#671))REPRESENTATION_CONTEXT
('ID1','3'));
#675=APPLICATION_CONTEXT(
'CONFIGURATION CONTROLLED 3D DESIGNS OF MECHANICAL PARTS AND ASSEMBLIES');
#676=APPLICATION_PROTOCOL_DEFINITION('international standard',
'config_control_design',1994,#675);
#677=DESIGN_CONTEXT('',#675,'design');
#678=MECHANICAL_CONTEXT('',#675,'mechanical');
#679=PRODUCT('BE_2020','BE_2020','NOT SPECIFIED',(#678));
#680=PRODUCT_DEFINITION_FORMATION_WITH_SPECIFIED_SOURCE('3','LAST_VERSION',#679,
.MADE.);
#684=PRODUCT_CATEGORY('part','');
#685=PRODUCT_RELATED_PRODUCT_CATEGORY('detail','',(#679));
#686=PRODUCT_CATEGORY_RELATIONSHIP('','',#684,#685);
#687=SECURITY_CLASSIFICATION_LEVEL('unclassified');
#688=SECURITY_CLASSIFICATION('','',#687);
#689=CC_DESIGN_SECURITY_CLASSIFICATION(#688,(#680));
#690=APPROVAL_STATUS('approved');
#691=APPROVAL(#690,'');
#692=CC_DESIGN_APPROVAL(#691,(#688,#680,#681));
#693=CALENDAR_DATE(120,18,5);
#694=COORDINATED_UNIVERSAL_TIME_OFFSET(9,0,.AHEAD.);
#695=LOCAL_TIME(9,52,2.8E1,#694);
#696=DATE_AND_TIME(#693,#695);
#697=APPROVAL_DATE_TIME(#696,#691);
#698=DATE_TIME_ROLE('creation_date');
#699=CC_DESIGN_DATE_AND_TIME_ASSIGNMENT(#696,#698,(#681));
#700=DATE_TIME_ROLE('classification_date');
#701=CC_DESIGN_DATE_AND_TIME_ASSIGNMENT(#696,#700,(#688));
#702=PERSON('UNSPECIFIED','UNSPECIFIED',$,$,$,$);
#703=ORGANIZATION('UNSPECIFIED','UNSPECIFIED','UNSPECIFIED');
#704=PERSON_AND_ORGANIZATION(#702,#703);
#705=APPROVAL_ROLE('approver');
#706=APPROVAL_PERSON_ORGANIZATION(#704,#691,#705);
#707=PERSON_AND_ORGANIZATION_ROLE('creator');
#708=CC_DESIGN_PERSON_AND_ORGANIZATION_ASSIGNMENT(#704,#707,(#680,#681));
#709=PERSON_AND_ORGANIZATION_ROLE('design_supplier');
#710=CC_DESIGN_PERSON_AND_ORGANIZATION_ASSIGNMENT(#704,#709,(#680));
#711=PERSON_AND_ORGANIZATION_ROLE('classification_officer');
#712=CC_DESIGN_PERSON_AND_ORGANIZATION_ASSIGNMENT(#704,#711,(#688));
#713=PERSON_AND_ORGANIZATION_ROLE('design_owner');
#714=CC_DESIGN_PERSON_AND_ORGANIZATION_ASSIGNMENT(#704,#713,(#679));
#137=CIRCLE('',#136,1.55E0);
#142=CIRCLE('',#141,1.55E0);
#147=CIRCLE('',#146,1.55E0);
#152=CIRCLE('',#151,1.55E0);
#304=EDGE_CURVE('',#227,#228,#4,.T.);
#306=EDGE_CURVE('',#228,#230,#8,.T.);
#308=EDGE_CURVE('',#230,#232,#12,.T.);
#310=EDGE_CURVE('',#232,#227,#16,.T.);
#314=EDGE_CURVE('',#283,#284,#20,.T.);
#316=EDGE_CURVE('',#284,#286,#24,.T.);
#318=EDGE_CURVE('',#286,#288,#28,.T.);
#320=EDGE_CURVE('',#288,#290,#32,.T.);
#322=EDGE_CURVE('',#290,#283,#36,.T.);
#326=EDGE_CURVE('',#293,#294,#40,.T.);
#328=EDGE_CURVE('',#294,#296,#44,.T.);
#330=EDGE_CURVE('',#296,#298,#48,.T.);
#332=EDGE_CURVE('',#298,#293,#52,.T.);
#343=EDGE_CURVE('',#227,#235,#56,.T.);
#345=EDGE_CURVE('',#235,#236,#72,.T.);
#347=EDGE_CURVE('',#228,#236,#68,.T.);
#358=EDGE_CURVE('',#232,#240,#60,.T.);
#360=EDGE_CURVE('',#240,#235,#76,.T.);
#372=EDGE_CURVE('',#230,#238,#64,.T.);
#374=EDGE_CURVE('',#238,#240,#80,.T.);
#387=EDGE_CURVE('',#236,#238,#84,.T.);
#404=EDGE_CURVE('',#251,#252,#88,.T.);
#406=EDGE_CURVE('',#252,#254,#92,.T.);
#408=EDGE_CURVE('',#254,#256,#96,.T.);
#410=EDGE_CURVE('',#256,#251,#100,.T.);
#421=EDGE_CURVE('',#251,#243,#104,.T.);
#423=EDGE_CURVE('',#243,#244,#120,.T.);
#425=EDGE_CURVE('',#252,#244,#116,.T.);
#436=EDGE_CURVE('',#256,#248,#108,.T.);
#438=EDGE_CURVE('',#248,#243,#124,.T.);
#450=EDGE_CURVE('',#254,#246,#112,.T.);
#452=EDGE_CURVE('',#246,#248,#128,.T.);
#465=EDGE_CURVE('',#244,#246,#132,.T.);
#482=EDGE_CURVE('',#259,#260,#137,.T.);
#484=EDGE_CURVE('',#260,#259,#142,.T.);
#495=EDGE_CURVE('',#259,#262,#152,.T.);
#497=EDGE_CURVE('',#260,#262,#147,.T.);
#519=EDGE_CURVE('',#283,#265,#156,.T.);
#521=EDGE_CURVE('',#265,#266,#176,.T.);
#523=EDGE_CURVE('',#284,#266,#172,.T.);
#534=EDGE_CURVE('',#290,#272,#160,.T.);
#536=EDGE_CURVE('',#272,#265,#180,.T.);
#548=EDGE_CURVE('',#288,#270,#164,.T.);
#550=EDGE_CURVE('',#270,#272,#184,.T.);
#562=EDGE_CURVE('',#286,#268,#168,.T.);
#564=EDGE_CURVE('',#268,#270,#188,.T.);
#577=EDGE_CURVE('',#266,#268,#192,.T.);
#601=EDGE_CURVE('',#275,#276,#196,.T.);
#603=EDGE_CURVE('',#280,#275,#200,.T.);
#605=EDGE_CURVE('',#278,#280,#204,.T.);
#607=EDGE_CURVE('',#276,#278,#208,.T.);
#618=EDGE_CURVE('',#293,#275,#212,.T.);
#621=EDGE_CURVE('',#294,#276,#224,.T.);
#632=EDGE_CURVE('',#298,#280,#216,.T.);
#645=EDGE_CURVE('',#296,#278,#220,.T.);
#666=(LENGTH_UNIT()NAMED_UNIT(*)SI_UNIT(.MILLI.,.METRE.));
#668=(NAMED_UNIT(*)PLANE_ANGLE_UNIT()SI_UNIT($,.RADIAN.));
#671=(NAMED_UNIT(*)SI_UNIT($,.STERADIAN.)SOLID_ANGLE_UNIT());
#674=ADVANCED_BREP_SHAPE_REPRESENTATION('',(#665),#673);
#681=PRODUCT_DEFINITION('design','',#680,#677);
#682=PRODUCT_DEFINITION_SHAPE('','SHAPE FOR BE_2020.',#681);
#683=SHAPE_DEFINITION_REPRESENTATION(#682,#674);
ENDSEC;
END-ISO-10303-21;
