ISO-10303-21;
HEADER;
FILE_DESCRIPTION((''),'2;1');
FILE_NAME('UDN1Z','2021-05-13T',('STJ945188'),(
'Nihon Parametric Technology K.K.'),'CREO PARAMETRIC BY PTC INC, 2017480',
'CREO PARAMETRIC BY PTC INC, 2017480','');
FILE_SCHEMA(('CONFIG_CONTROL_DESIGN'));
ENDSEC;
DATA;
#1=CARTESIAN_POINT('',(-1.85E0,1.85E0,0.E0));
#2=DIRECTION('',(0.E0,0.E0,-1.E0));
#3=DIRECTION('',(9.340497736159E-1,-3.571428571429E-1,0.E0));
#4=AXIS2_PLACEMENT_3D('',#1,#2,#3);
#6=DIRECTION('',(0.E0,-1.E0,0.E0));
#7=VECTOR('',#6,3.176932126775E0);
#8=CARTESIAN_POINT('',(-1.75E0,1.588466063388E0,0.E0));
#9=LINE('',#8,#7);
#10=CARTESIAN_POINT('',(-1.85E0,-1.85E0,0.E0));
#11=DIRECTION('',(0.E0,0.E0,-1.E0));
#12=DIRECTION('',(3.571428571429E-1,9.340497736159E-1,0.E0));
#13=AXIS2_PLACEMENT_3D('',#10,#11,#12);
#15=DIRECTION('',(1.E0,0.E0,0.E0));
#16=VECTOR('',#15,3.176932126775E0);
#17=CARTESIAN_POINT('',(-1.588466063388E0,-1.75E0,0.E0));
#18=LINE('',#17,#16);
#19=CARTESIAN_POINT('',(1.85E0,-1.85E0,0.E0));
#20=DIRECTION('',(0.E0,0.E0,-1.E0));
#21=DIRECTION('',(-9.340497736159E-1,3.571428571429E-1,0.E0));
#22=AXIS2_PLACEMENT_3D('',#19,#20,#21);
#24=DIRECTION('',(0.E0,1.E0,0.E0));
#25=VECTOR('',#24,3.176932126775E0);
#26=CARTESIAN_POINT('',(1.75E0,-1.588466063388E0,0.E0));
#27=LINE('',#26,#25);
#28=CARTESIAN_POINT('',(1.85E0,1.85E0,0.E0));
#29=DIRECTION('',(0.E0,0.E0,-1.E0));
#30=DIRECTION('',(-3.571428571429E-1,-9.340497736159E-1,0.E0));
#31=AXIS2_PLACEMENT_3D('',#28,#29,#30);
#33=DIRECTION('',(-1.E0,0.E0,0.E0));
#34=VECTOR('',#33,3.176932126775E0);
#35=CARTESIAN_POINT('',(1.588466063388E0,1.75E0,0.E0));
#36=LINE('',#35,#34);
#37=DIRECTION('',(0.E0,0.E0,1.E0));
#38=VECTOR('',#37,1.215E0);
#39=CARTESIAN_POINT('',(-1.588466063388E0,1.75E0,0.E0));
#40=LINE('',#39,#38);
#41=DIRECTION('',(0.E0,0.E0,1.E0));
#42=VECTOR('',#41,1.215E0);
#43=CARTESIAN_POINT('',(1.588466063388E0,1.75E0,0.E0));
#44=LINE('',#43,#42);
#45=DIRECTION('',(0.E0,0.E0,1.E0));
#46=VECTOR('',#45,1.215E0);
#47=CARTESIAN_POINT('',(1.75E0,1.588466063388E0,0.E0));
#48=LINE('',#47,#46);
#49=DIRECTION('',(0.E0,0.E0,1.E0));
#50=VECTOR('',#49,1.215E0);
#51=CARTESIAN_POINT('',(1.75E0,-1.588466063388E0,0.E0));
#52=LINE('',#51,#50);
#53=DIRECTION('',(0.E0,0.E0,1.E0));
#54=VECTOR('',#53,1.215E0);
#55=CARTESIAN_POINT('',(1.588466063388E0,-1.75E0,0.E0));
#56=LINE('',#55,#54);
#57=DIRECTION('',(0.E0,0.E0,1.E0));
#58=VECTOR('',#57,1.215E0);
#59=CARTESIAN_POINT('',(-1.588466063388E0,-1.75E0,0.E0));
#60=LINE('',#59,#58);
#61=DIRECTION('',(0.E0,0.E0,1.E0));
#62=VECTOR('',#61,1.215E0);
#63=CARTESIAN_POINT('',(-1.75E0,-1.588466063388E0,0.E0));
#64=LINE('',#63,#62);
#65=DIRECTION('',(0.E0,0.E0,1.E0));
#66=VECTOR('',#65,1.215E0);
#67=CARTESIAN_POINT('',(-1.75E0,1.588466063388E0,0.E0));
#68=LINE('',#67,#66);
#69=CARTESIAN_POINT('',(-1.85E0,1.85E0,1.215E0));
#70=DIRECTION('',(0.E0,0.E0,-1.E0));
#71=DIRECTION('',(9.340497736159E-1,-3.571428571429E-1,0.E0));
#72=AXIS2_PLACEMENT_3D('',#69,#70,#71);
#74=DIRECTION('',(-1.E0,0.E0,0.E0));
#75=VECTOR('',#74,3.176932126775E0);
#76=CARTESIAN_POINT('',(1.588466063388E0,1.75E0,1.215E0));
#77=LINE('',#76,#75);
#78=CARTESIAN_POINT('',(1.85E0,1.85E0,1.215E0));
#79=DIRECTION('',(0.E0,0.E0,-1.E0));
#80=DIRECTION('',(-3.571428571429E-1,-9.340497736159E-1,0.E0));
#81=AXIS2_PLACEMENT_3D('',#78,#79,#80);
#83=DIRECTION('',(0.E0,1.E0,0.E0));
#84=VECTOR('',#83,3.176932126775E0);
#85=CARTESIAN_POINT('',(1.75E0,-1.588466063388E0,1.215E0));
#86=LINE('',#85,#84);
#87=CARTESIAN_POINT('',(1.85E0,-1.85E0,1.215E0));
#88=DIRECTION('',(0.E0,0.E0,-1.E0));
#89=DIRECTION('',(-9.340497736159E-1,3.571428571429E-1,0.E0));
#90=AXIS2_PLACEMENT_3D('',#87,#88,#89);
#92=DIRECTION('',(1.E0,0.E0,0.E0));
#93=VECTOR('',#92,3.176932126775E0);
#94=CARTESIAN_POINT('',(-1.588466063388E0,-1.75E0,1.215E0));
#95=LINE('',#94,#93);
#96=CARTESIAN_POINT('',(-1.85E0,-1.85E0,1.215E0));
#97=DIRECTION('',(0.E0,0.E0,-1.E0));
#98=DIRECTION('',(3.571428571429E-1,9.340497736159E-1,0.E0));
#99=AXIS2_PLACEMENT_3D('',#96,#97,#98);
#101=DIRECTION('',(0.E0,-1.E0,0.E0));
#102=VECTOR('',#101,3.176932126775E0);
#103=CARTESIAN_POINT('',(-1.75E0,1.588466063388E0,1.215E0));
#104=LINE('',#103,#102);
#105=DIRECTION('',(0.E0,-1.E0,0.E0));
#106=VECTOR('',#105,3.1E0);
#107=CARTESIAN_POINT('',(-1.55E0,1.55E0,1.215E0));
#108=LINE('',#107,#106);
#109=DIRECTION('',(1.E0,0.E0,0.E0));
#110=VECTOR('',#109,1.E0);
#111=CARTESIAN_POINT('',(-1.55E0,-1.55E0,1.215E0));
#112=LINE('',#111,#110);
#113=DIRECTION('',(6.E-1,8.E-1,0.E0));
#114=VECTOR('',#113,5.E-1);
#115=CARTESIAN_POINT('',(-5.5E-1,-1.55E0,1.215E0));
#116=LINE('',#115,#114);
#117=DIRECTION('',(0.E0,1.E0,0.E0));
#118=VECTOR('',#117,2.7E0);
#119=CARTESIAN_POINT('',(-2.5E-1,-1.15E0,1.215E0));
#120=LINE('',#119,#118);
#121=DIRECTION('',(-1.E0,0.E0,0.E0));
#122=VECTOR('',#121,1.3E0);
#123=CARTESIAN_POINT('',(-2.5E-1,1.55E0,1.215E0));
#124=LINE('',#123,#122);
#125=DIRECTION('',(0.E0,-1.E0,0.E0));
#126=VECTOR('',#125,3.1E0);
#127=CARTESIAN_POINT('',(2.5E-1,1.55E0,1.215E0));
#128=LINE('',#127,#126);
#129=DIRECTION('',(1.E0,0.E0,0.E0));
#130=VECTOR('',#129,1.3E0);
#131=CARTESIAN_POINT('',(2.5E-1,-1.55E0,1.215E0));
#132=LINE('',#131,#130);
#133=DIRECTION('',(0.E0,1.E0,0.E0));
#134=VECTOR('',#133,3.1E0);
#135=CARTESIAN_POINT('',(1.55E0,-1.55E0,1.215E0));
#136=LINE('',#135,#134);
#137=DIRECTION('',(-1.E0,0.E0,0.E0));
#138=VECTOR('',#137,1.3E0);
#139=CARTESIAN_POINT('',(1.55E0,1.55E0,1.215E0));
#140=LINE('',#139,#138);
#141=DIRECTION('',(0.E0,0.E0,1.E0));
#142=VECTOR('',#141,1.E-2);
#143=CARTESIAN_POINT('',(-1.55E0,1.55E0,1.215E0));
#144=LINE('',#143,#142);
#145=DIRECTION('',(0.E0,0.E0,1.E0));
#146=VECTOR('',#145,1.E-2);
#147=CARTESIAN_POINT('',(-2.5E-1,1.55E0,1.215E0));
#148=LINE('',#147,#146);
#149=DIRECTION('',(0.E0,0.E0,1.E0));
#150=VECTOR('',#149,1.E-2);
#151=CARTESIAN_POINT('',(-2.5E-1,-1.15E0,1.215E0));
#152=LINE('',#151,#150);
#153=DIRECTION('',(0.E0,0.E0,1.E0));
#154=VECTOR('',#153,1.E-2);
#155=CARTESIAN_POINT('',(-5.5E-1,-1.55E0,1.215E0));
#156=LINE('',#155,#154);
#157=DIRECTION('',(0.E0,0.E0,1.E0));
#158=VECTOR('',#157,1.E-2);
#159=CARTESIAN_POINT('',(-1.55E0,-1.55E0,1.215E0));
#160=LINE('',#159,#158);
#161=DIRECTION('',(0.E0,-1.E0,0.E0));
#162=VECTOR('',#161,3.1E0);
#163=CARTESIAN_POINT('',(-1.55E0,1.55E0,1.225E0));
#164=LINE('',#163,#162);
#165=DIRECTION('',(-1.E0,0.E0,0.E0));
#166=VECTOR('',#165,1.3E0);
#167=CARTESIAN_POINT('',(-2.5E-1,1.55E0,1.225E0));
#168=LINE('',#167,#166);
#169=DIRECTION('',(0.E0,1.E0,0.E0));
#170=VECTOR('',#169,2.7E0);
#171=CARTESIAN_POINT('',(-2.5E-1,-1.15E0,1.225E0));
#172=LINE('',#171,#170);
#173=DIRECTION('',(6.E-1,8.E-1,0.E0));
#174=VECTOR('',#173,5.E-1);
#175=CARTESIAN_POINT('',(-5.5E-1,-1.55E0,1.225E0));
#176=LINE('',#175,#174);
#177=DIRECTION('',(1.E0,0.E0,0.E0));
#178=VECTOR('',#177,1.E0);
#179=CARTESIAN_POINT('',(-1.55E0,-1.55E0,1.225E0));
#180=LINE('',#179,#178);
#181=DIRECTION('',(0.E0,-1.E0,0.E0));
#182=VECTOR('',#181,3.1E0);
#183=CARTESIAN_POINT('',(2.5E-1,1.55E0,1.225E0));
#184=LINE('',#183,#182);
#185=DIRECTION('',(-1.E0,0.E0,0.E0));
#186=VECTOR('',#185,1.3E0);
#187=CARTESIAN_POINT('',(1.55E0,1.55E0,1.225E0));
#188=LINE('',#187,#186);
#189=DIRECTION('',(0.E0,1.E0,0.E0));
#190=VECTOR('',#189,3.1E0);
#191=CARTESIAN_POINT('',(1.55E0,-1.55E0,1.225E0));
#192=LINE('',#191,#190);
#193=DIRECTION('',(1.E0,0.E0,0.E0));
#194=VECTOR('',#193,1.3E0);
#195=CARTESIAN_POINT('',(2.5E-1,-1.55E0,1.225E0));
#196=LINE('',#195,#194);
#197=DIRECTION('',(0.E0,0.E0,1.E0));
#198=VECTOR('',#197,1.E-2);
#199=CARTESIAN_POINT('',(2.5E-1,1.55E0,1.215E0));
#200=LINE('',#199,#198);
#201=DIRECTION('',(0.E0,0.E0,1.E0));
#202=VECTOR('',#201,1.E-2);
#203=CARTESIAN_POINT('',(1.55E0,1.55E0,1.215E0));
#204=LINE('',#203,#202);
#205=DIRECTION('',(0.E0,0.E0,1.E0));
#206=VECTOR('',#205,1.E-2);
#207=CARTESIAN_POINT('',(1.55E0,-1.55E0,1.215E0));
#208=LINE('',#207,#206);
#209=DIRECTION('',(0.E0,0.E0,1.E0));
#210=VECTOR('',#209,1.E-2);
#211=CARTESIAN_POINT('',(2.5E-1,-1.55E0,1.215E0));
#212=LINE('',#211,#210);
#213=CARTESIAN_POINT('',(-1.55E0,1.55E0,1.225E0));
#214=CARTESIAN_POINT('',(-1.55E0,-1.55E0,1.225E0));
#215=VERTEX_POINT('',#213);
#216=VERTEX_POINT('',#214);
#217=CARTESIAN_POINT('',(-5.5E-1,-1.55E0,1.225E0));
#218=VERTEX_POINT('',#217);
#219=CARTESIAN_POINT('',(-2.5E-1,-1.15E0,1.225E0));
#220=CARTESIAN_POINT('',(-2.5E-1,1.55E0,1.225E0));
#221=VERTEX_POINT('',#219);
#222=VERTEX_POINT('',#220);
#223=CARTESIAN_POINT('',(2.5E-1,1.55E0,1.225E0));
#224=CARTESIAN_POINT('',(2.5E-1,-1.55E0,1.225E0));
#225=VERTEX_POINT('',#223);
#226=VERTEX_POINT('',#224);
#227=CARTESIAN_POINT('',(1.55E0,-1.55E0,1.225E0));
#228=VERTEX_POINT('',#227);
#229=CARTESIAN_POINT('',(1.55E0,1.55E0,1.225E0));
#230=VERTEX_POINT('',#229);
#231=CARTESIAN_POINT('',(-1.55E0,1.55E0,1.215E0));
#232=CARTESIAN_POINT('',(-1.55E0,-1.55E0,1.215E0));
#233=VERTEX_POINT('',#231);
#234=VERTEX_POINT('',#232);
#235=CARTESIAN_POINT('',(-5.5E-1,-1.55E0,1.215E0));
#236=VERTEX_POINT('',#235);
#237=CARTESIAN_POINT('',(-2.5E-1,-1.15E0,1.215E0));
#238=CARTESIAN_POINT('',(-2.5E-1,1.55E0,1.215E0));
#239=VERTEX_POINT('',#237);
#240=VERTEX_POINT('',#238);
#241=CARTESIAN_POINT('',(2.5E-1,1.55E0,1.215E0));
#242=CARTESIAN_POINT('',(2.5E-1,-1.55E0,1.215E0));
#243=VERTEX_POINT('',#241);
#244=VERTEX_POINT('',#242);
#245=CARTESIAN_POINT('',(1.55E0,-1.55E0,1.215E0));
#246=VERTEX_POINT('',#245);
#247=CARTESIAN_POINT('',(1.55E0,1.55E0,1.215E0));
#248=VERTEX_POINT('',#247);
#249=CARTESIAN_POINT('',(-1.588466063388E0,1.75E0,0.E0));
#250=CARTESIAN_POINT('',(-1.75E0,1.588466063388E0,0.E0));
#251=VERTEX_POINT('',#249);
#252=VERTEX_POINT('',#250);
#253=CARTESIAN_POINT('',(-1.75E0,-1.588466063388E0,0.E0));
#254=VERTEX_POINT('',#253);
#255=CARTESIAN_POINT('',(-1.588466063388E0,-1.75E0,0.E0));
#256=VERTEX_POINT('',#255);
#257=CARTESIAN_POINT('',(1.588466063388E0,-1.75E0,0.E0));
#258=VERTEX_POINT('',#257);
#259=CARTESIAN_POINT('',(1.75E0,-1.588466063388E0,0.E0));
#260=VERTEX_POINT('',#259);
#261=CARTESIAN_POINT('',(1.75E0,1.588466063388E0,0.E0));
#262=VERTEX_POINT('',#261);
#263=CARTESIAN_POINT('',(1.588466063388E0,1.75E0,0.E0));
#264=VERTEX_POINT('',#263);
#265=CARTESIAN_POINT('',(-1.588466063388E0,1.75E0,1.215E0));
#266=CARTESIAN_POINT('',(-1.75E0,1.588466063388E0,1.215E0));
#267=VERTEX_POINT('',#265);
#268=VERTEX_POINT('',#266);
#269=CARTESIAN_POINT('',(-1.75E0,-1.588466063388E0,1.215E0));
#270=VERTEX_POINT('',#269);
#271=CARTESIAN_POINT('',(-1.588466063388E0,-1.75E0,1.215E0));
#272=VERTEX_POINT('',#271);
#273=CARTESIAN_POINT('',(1.588466063388E0,-1.75E0,1.215E0));
#274=VERTEX_POINT('',#273);
#275=CARTESIAN_POINT('',(1.75E0,-1.588466063388E0,1.215E0));
#276=VERTEX_POINT('',#275);
#277=CARTESIAN_POINT('',(1.75E0,1.588466063388E0,1.215E0));
#278=VERTEX_POINT('',#277);
#279=CARTESIAN_POINT('',(1.588466063388E0,1.75E0,1.215E0));
#280=VERTEX_POINT('',#279);
#281=CARTESIAN_POINT('',(0.E0,0.E0,0.E0));
#282=DIRECTION('',(0.E0,0.E0,1.E0));
#283=DIRECTION('',(1.E0,0.E0,0.E0));
#284=AXIS2_PLACEMENT_3D('',#281,#282,#283);
#285=PLANE('',#284);
#287=ORIENTED_EDGE('',*,*,#286,.T.);
#289=ORIENTED_EDGE('',*,*,#288,.T.);
#291=ORIENTED_EDGE('',*,*,#290,.T.);
#293=ORIENTED_EDGE('',*,*,#292,.T.);
#295=ORIENTED_EDGE('',*,*,#294,.T.);
#297=ORIENTED_EDGE('',*,*,#296,.T.);
#299=ORIENTED_EDGE('',*,*,#298,.T.);
#301=ORIENTED_EDGE('',*,*,#300,.T.);
#302=EDGE_LOOP('',(#287,#289,#291,#293,#295,#297,#299,#301));
#303=FACE_OUTER_BOUND('',#302,.F.);
#304=ADVANCED_FACE('',(#303),#285,.F.);
#305=CARTESIAN_POINT('',(-1.85E0,1.85E0,0.E0));
#306=DIRECTION('',(0.E0,0.E0,1.E0));
#307=DIRECTION('',(1.E0,0.E0,0.E0));
#308=AXIS2_PLACEMENT_3D('',#305,#306,#307);
#309=CYLINDRICAL_SURFACE('',#308,2.8E-1);
#310=ORIENTED_EDGE('',*,*,#286,.F.);
#312=ORIENTED_EDGE('',*,*,#311,.T.);
#314=ORIENTED_EDGE('',*,*,#313,.T.);
#316=ORIENTED_EDGE('',*,*,#315,.F.);
#317=EDGE_LOOP('',(#310,#312,#314,#316));
#318=FACE_OUTER_BOUND('',#317,.F.);
#319=ADVANCED_FACE('',(#318),#309,.F.);
#320=CARTESIAN_POINT('',(1.588466063388E0,1.75E0,0.E0));
#321=DIRECTION('',(0.E0,1.E0,0.E0));
#322=DIRECTION('',(-1.E0,0.E0,0.E0));
#323=AXIS2_PLACEMENT_3D('',#320,#321,#322);
#324=PLANE('',#323);
#325=ORIENTED_EDGE('',*,*,#300,.F.);
#327=ORIENTED_EDGE('',*,*,#326,.T.);
#329=ORIENTED_EDGE('',*,*,#328,.T.);
#330=ORIENTED_EDGE('',*,*,#311,.F.);
#331=EDGE_LOOP('',(#325,#327,#329,#330));
#332=FACE_OUTER_BOUND('',#331,.F.);
#333=ADVANCED_FACE('',(#332),#324,.T.);
#334=CARTESIAN_POINT('',(1.85E0,1.85E0,0.E0));
#335=DIRECTION('',(0.E0,0.E0,1.E0));
#336=DIRECTION('',(1.E0,0.E0,0.E0));
#337=AXIS2_PLACEMENT_3D('',#334,#335,#336);
#338=CYLINDRICAL_SURFACE('',#337,2.8E-1);
#339=ORIENTED_EDGE('',*,*,#298,.F.);
#341=ORIENTED_EDGE('',*,*,#340,.T.);
#343=ORIENTED_EDGE('',*,*,#342,.T.);
#344=ORIENTED_EDGE('',*,*,#326,.F.);
#345=EDGE_LOOP('',(#339,#341,#343,#344));
#346=FACE_OUTER_BOUND('',#345,.F.);
#347=ADVANCED_FACE('',(#346),#338,.F.);
#348=CARTESIAN_POINT('',(1.75E0,-1.588466063388E0,0.E0));
#349=DIRECTION('',(1.E0,0.E0,0.E0));
#350=DIRECTION('',(0.E0,1.E0,0.E0));
#351=AXIS2_PLACEMENT_3D('',#348,#349,#350);
#352=PLANE('',#351);
#353=ORIENTED_EDGE('',*,*,#296,.F.);
#355=ORIENTED_EDGE('',*,*,#354,.T.);
#357=ORIENTED_EDGE('',*,*,#356,.T.);
#358=ORIENTED_EDGE('',*,*,#340,.F.);
#359=EDGE_LOOP('',(#353,#355,#357,#358));
#360=FACE_OUTER_BOUND('',#359,.F.);
#361=ADVANCED_FACE('',(#360),#352,.T.);
#362=CARTESIAN_POINT('',(1.85E0,-1.85E0,0.E0));
#363=DIRECTION('',(0.E0,0.E0,1.E0));
#364=DIRECTION('',(1.E0,0.E0,0.E0));
#365=AXIS2_PLACEMENT_3D('',#362,#363,#364);
#366=CYLINDRICAL_SURFACE('',#365,2.8E-1);
#367=ORIENTED_EDGE('',*,*,#294,.F.);
#369=ORIENTED_EDGE('',*,*,#368,.T.);
#371=ORIENTED_EDGE('',*,*,#370,.T.);
#372=ORIENTED_EDGE('',*,*,#354,.F.);
#373=EDGE_LOOP('',(#367,#369,#371,#372));
#374=FACE_OUTER_BOUND('',#373,.F.);
#375=ADVANCED_FACE('',(#374),#366,.F.);
#376=CARTESIAN_POINT('',(-1.588466063388E0,-1.75E0,0.E0));
#377=DIRECTION('',(0.E0,-1.E0,0.E0));
#378=DIRECTION('',(1.E0,0.E0,0.E0));
#379=AXIS2_PLACEMENT_3D('',#376,#377,#378);
#380=PLANE('',#379);
#381=ORIENTED_EDGE('',*,*,#292,.F.);
#383=ORIENTED_EDGE('',*,*,#382,.T.);
#385=ORIENTED_EDGE('',*,*,#384,.T.);
#386=ORIENTED_EDGE('',*,*,#368,.F.);
#387=EDGE_LOOP('',(#381,#383,#385,#386));
#388=FACE_OUTER_BOUND('',#387,.F.);
#389=ADVANCED_FACE('',(#388),#380,.T.);
#390=CARTESIAN_POINT('',(-1.85E0,-1.85E0,0.E0));
#391=DIRECTION('',(0.E0,0.E0,1.E0));
#392=DIRECTION('',(1.E0,0.E0,0.E0));
#393=AXIS2_PLACEMENT_3D('',#390,#391,#392);
#394=CYLINDRICAL_SURFACE('',#393,2.8E-1);
#395=ORIENTED_EDGE('',*,*,#290,.F.);
#397=ORIENTED_EDGE('',*,*,#396,.T.);
#399=ORIENTED_EDGE('',*,*,#398,.T.);
#400=ORIENTED_EDGE('',*,*,#382,.F.);
#401=EDGE_LOOP('',(#395,#397,#399,#400));
#402=FACE_OUTER_BOUND('',#401,.F.);
#403=ADVANCED_FACE('',(#402),#394,.F.);
#404=CARTESIAN_POINT('',(-1.75E0,1.588466063388E0,0.E0));
#405=DIRECTION('',(-1.E0,0.E0,0.E0));
#406=DIRECTION('',(0.E0,-1.E0,0.E0));
#407=AXIS2_PLACEMENT_3D('',#404,#405,#406);
#408=PLANE('',#407);
#409=ORIENTED_EDGE('',*,*,#288,.F.);
#410=ORIENTED_EDGE('',*,*,#315,.T.);
#412=ORIENTED_EDGE('',*,*,#411,.T.);
#413=ORIENTED_EDGE('',*,*,#396,.F.);
#414=EDGE_LOOP('',(#409,#410,#412,#413));
#415=FACE_OUTER_BOUND('',#414,.F.);
#416=ADVANCED_FACE('',(#415),#408,.T.);
#417=CARTESIAN_POINT('',(0.E0,0.E0,1.215E0));
#418=DIRECTION('',(0.E0,0.E0,1.E0));
#419=DIRECTION('',(1.E0,0.E0,0.E0));
#420=AXIS2_PLACEMENT_3D('',#417,#418,#419);
#421=PLANE('',#420);
#422=ORIENTED_EDGE('',*,*,#313,.F.);
#423=ORIENTED_EDGE('',*,*,#328,.F.);
#424=ORIENTED_EDGE('',*,*,#342,.F.);
#425=ORIENTED_EDGE('',*,*,#356,.F.);
#426=ORIENTED_EDGE('',*,*,#370,.F.);
#427=ORIENTED_EDGE('',*,*,#384,.F.);
#428=ORIENTED_EDGE('',*,*,#398,.F.);
#429=ORIENTED_EDGE('',*,*,#411,.F.);
#430=EDGE_LOOP('',(#422,#423,#424,#425,#426,#427,#428,#429));
#431=FACE_OUTER_BOUND('',#430,.F.);
#433=ORIENTED_EDGE('',*,*,#432,.T.);
#435=ORIENTED_EDGE('',*,*,#434,.T.);
#437=ORIENTED_EDGE('',*,*,#436,.T.);
#439=ORIENTED_EDGE('',*,*,#438,.T.);
#441=ORIENTED_EDGE('',*,*,#440,.T.);
#442=EDGE_LOOP('',(#433,#435,#437,#439,#441));
#443=FACE_BOUND('',#442,.F.);
#445=ORIENTED_EDGE('',*,*,#444,.T.);
#447=ORIENTED_EDGE('',*,*,#446,.T.);
#449=ORIENTED_EDGE('',*,*,#448,.T.);
#451=ORIENTED_EDGE('',*,*,#450,.T.);
#452=EDGE_LOOP('',(#445,#447,#449,#451));
#453=FACE_BOUND('',#452,.F.);
#454=ADVANCED_FACE('',(#431,#443,#453),#421,.T.);
#455=CARTESIAN_POINT('',(-1.55E0,1.55E0,1.215E0));
#456=DIRECTION('',(-1.E0,0.E0,0.E0));
#457=DIRECTION('',(0.E0,-1.E0,0.E0));
#458=AXIS2_PLACEMENT_3D('',#455,#456,#457);
#459=PLANE('',#458);
#460=ORIENTED_EDGE('',*,*,#432,.F.);
#462=ORIENTED_EDGE('',*,*,#461,.T.);
#464=ORIENTED_EDGE('',*,*,#463,.T.);
#466=ORIENTED_EDGE('',*,*,#465,.F.);
#467=EDGE_LOOP('',(#460,#462,#464,#466));
#468=FACE_OUTER_BOUND('',#467,.F.);
#469=ADVANCED_FACE('',(#468),#459,.T.);
#470=CARTESIAN_POINT('',(-2.5E-1,1.55E0,1.215E0));
#471=DIRECTION('',(0.E0,1.E0,0.E0));
#472=DIRECTION('',(-1.E0,0.E0,0.E0));
#473=AXIS2_PLACEMENT_3D('',#470,#471,#472);
#474=PLANE('',#473);
#475=ORIENTED_EDGE('',*,*,#440,.F.);
#477=ORIENTED_EDGE('',*,*,#476,.T.);
#479=ORIENTED_EDGE('',*,*,#478,.T.);
#480=ORIENTED_EDGE('',*,*,#461,.F.);
#481=EDGE_LOOP('',(#475,#477,#479,#480));
#482=FACE_OUTER_BOUND('',#481,.F.);
#483=ADVANCED_FACE('',(#482),#474,.T.);
#484=CARTESIAN_POINT('',(-2.5E-1,-1.15E0,1.215E0));
#485=DIRECTION('',(1.E0,0.E0,0.E0));
#486=DIRECTION('',(0.E0,1.E0,0.E0));
#487=AXIS2_PLACEMENT_3D('',#484,#485,#486);
#488=PLANE('',#487);
#489=ORIENTED_EDGE('',*,*,#438,.F.);
#491=ORIENTED_EDGE('',*,*,#490,.T.);
#493=ORIENTED_EDGE('',*,*,#492,.T.);
#494=ORIENTED_EDGE('',*,*,#476,.F.);
#495=EDGE_LOOP('',(#489,#491,#493,#494));
#496=FACE_OUTER_BOUND('',#495,.F.);
#497=ADVANCED_FACE('',(#496),#488,.T.);
#498=CARTESIAN_POINT('',(-5.5E-1,-1.55E0,1.215E0));
#499=DIRECTION('',(8.E-1,-6.E-1,0.E0));
#500=DIRECTION('',(6.E-1,8.E-1,0.E0));
#501=AXIS2_PLACEMENT_3D('',#498,#499,#500);
#502=PLANE('',#501);
#503=ORIENTED_EDGE('',*,*,#436,.F.);
#505=ORIENTED_EDGE('',*,*,#504,.T.);
#507=ORIENTED_EDGE('',*,*,#506,.T.);
#508=ORIENTED_EDGE('',*,*,#490,.F.);
#509=EDGE_LOOP('',(#503,#505,#507,#508));
#510=FACE_OUTER_BOUND('',#509,.F.);
#511=ADVANCED_FACE('',(#510),#502,.T.);
#512=CARTESIAN_POINT('',(-1.55E0,-1.55E0,1.215E0));
#513=DIRECTION('',(0.E0,-1.E0,0.E0));
#514=DIRECTION('',(1.E0,0.E0,0.E0));
#515=AXIS2_PLACEMENT_3D('',#512,#513,#514);
#516=PLANE('',#515);
#517=ORIENTED_EDGE('',*,*,#434,.F.);
#518=ORIENTED_EDGE('',*,*,#465,.T.);
#520=ORIENTED_EDGE('',*,*,#519,.T.);
#521=ORIENTED_EDGE('',*,*,#504,.F.);
#522=EDGE_LOOP('',(#517,#518,#520,#521));
#523=FACE_OUTER_BOUND('',#522,.F.);
#524=ADVANCED_FACE('',(#523),#516,.T.);
#525=CARTESIAN_POINT('',(0.E0,0.E0,1.225E0));
#526=DIRECTION('',(0.E0,0.E0,1.E0));
#527=DIRECTION('',(1.E0,0.E0,0.E0));
#528=AXIS2_PLACEMENT_3D('',#525,#526,#527);
#529=PLANE('',#528);
#530=ORIENTED_EDGE('',*,*,#463,.F.);
#531=ORIENTED_EDGE('',*,*,#478,.F.);
#532=ORIENTED_EDGE('',*,*,#492,.F.);
#533=ORIENTED_EDGE('',*,*,#506,.F.);
#534=ORIENTED_EDGE('',*,*,#519,.F.);
#535=EDGE_LOOP('',(#530,#531,#532,#533,#534));
#536=FACE_OUTER_BOUND('',#535,.F.);
#537=ADVANCED_FACE('',(#536),#529,.T.);
#538=CARTESIAN_POINT('',(0.E0,0.E0,1.225E0));
#539=DIRECTION('',(0.E0,0.E0,1.E0));
#540=DIRECTION('',(1.E0,0.E0,0.E0));
#541=AXIS2_PLACEMENT_3D('',#538,#539,#540);
#542=PLANE('',#541);
#544=ORIENTED_EDGE('',*,*,#543,.F.);
#546=ORIENTED_EDGE('',*,*,#545,.F.);
#548=ORIENTED_EDGE('',*,*,#547,.F.);
#550=ORIENTED_EDGE('',*,*,#549,.F.);
#551=EDGE_LOOP('',(#544,#546,#548,#550));
#552=FACE_OUTER_BOUND('',#551,.F.);
#553=ADVANCED_FACE('',(#552),#542,.T.);
#554=CARTESIAN_POINT('',(2.5E-1,1.55E0,1.215E0));
#555=DIRECTION('',(-1.E0,0.E0,0.E0));
#556=DIRECTION('',(0.E0,-1.E0,0.E0));
#557=AXIS2_PLACEMENT_3D('',#554,#555,#556);
#558=PLANE('',#557);
#559=ORIENTED_EDGE('',*,*,#444,.F.);
#561=ORIENTED_EDGE('',*,*,#560,.T.);
#562=ORIENTED_EDGE('',*,*,#543,.T.);
#564=ORIENTED_EDGE('',*,*,#563,.F.);
#565=EDGE_LOOP('',(#559,#561,#562,#564));
#566=FACE_OUTER_BOUND('',#565,.F.);
#567=ADVANCED_FACE('',(#566),#558,.T.);
#568=CARTESIAN_POINT('',(1.55E0,1.55E0,1.215E0));
#569=DIRECTION('',(0.E0,1.E0,0.E0));
#570=DIRECTION('',(-1.E0,0.E0,0.E0));
#571=AXIS2_PLACEMENT_3D('',#568,#569,#570);
#572=PLANE('',#571);
#573=ORIENTED_EDGE('',*,*,#450,.F.);
#575=ORIENTED_EDGE('',*,*,#574,.T.);
#576=ORIENTED_EDGE('',*,*,#545,.T.);
#577=ORIENTED_EDGE('',*,*,#560,.F.);
#578=EDGE_LOOP('',(#573,#575,#576,#577));
#579=FACE_OUTER_BOUND('',#578,.F.);
#580=ADVANCED_FACE('',(#579),#572,.T.);
#581=CARTESIAN_POINT('',(1.55E0,-1.55E0,1.215E0));
#582=DIRECTION('',(1.E0,0.E0,0.E0));
#583=DIRECTION('',(0.E0,1.E0,0.E0));
#584=AXIS2_PLACEMENT_3D('',#581,#582,#583);
#585=PLANE('',#584);
#586=ORIENTED_EDGE('',*,*,#448,.F.);
#588=ORIENTED_EDGE('',*,*,#587,.T.);
#589=ORIENTED_EDGE('',*,*,#547,.T.);
#590=ORIENTED_EDGE('',*,*,#574,.F.);
#591=EDGE_LOOP('',(#586,#588,#589,#590));
#592=FACE_OUTER_BOUND('',#591,.F.);
#593=ADVANCED_FACE('',(#592),#585,.T.);
#594=CARTESIAN_POINT('',(2.5E-1,-1.55E0,1.215E0));
#595=DIRECTION('',(0.E0,-1.E0,0.E0));
#596=DIRECTION('',(1.E0,0.E0,0.E0));
#597=AXIS2_PLACEMENT_3D('',#594,#595,#596);
#598=PLANE('',#597);
#599=ORIENTED_EDGE('',*,*,#446,.F.);
#600=ORIENTED_EDGE('',*,*,#563,.T.);
#601=ORIENTED_EDGE('',*,*,#549,.T.);
#602=ORIENTED_EDGE('',*,*,#587,.F.);
#603=EDGE_LOOP('',(#599,#600,#601,#602));
#604=FACE_OUTER_BOUND('',#603,.F.);
#605=ADVANCED_FACE('',(#604),#598,.T.);
#606=CLOSED_SHELL('',(#304,#319,#333,#347,#361,#375,#389,#403,#416,#454,#469,
#483,#497,#511,#524,#537,#553,#567,#580,#593,#605));
#607=MANIFOLD_SOLID_BREP('',#606);
#609=DIMENSIONAL_EXPONENTS(0.E0,0.E0,0.E0,0.E0,0.E0,0.E0,0.E0);
#611=PLANE_ANGLE_MEASURE_WITH_UNIT(PLANE_ANGLE_MEASURE(1.745329251994E-2),#610);
#612=(CONVERSION_BASED_UNIT('DEGREE',#611)NAMED_UNIT(*)PLANE_ANGLE_UNIT());
#614=UNCERTAINTY_MEASURE_WITH_UNIT(LENGTH_MEASURE(5.098876836285E-4),#608,
'closure',
'Maximum model space distance between geometric entities at asserted connectivities');
#615=(GEOMETRIC_REPRESENTATION_CONTEXT(3)GLOBAL_UNCERTAINTY_ASSIGNED_CONTEXT((
#614))GLOBAL_UNIT_ASSIGNED_CONTEXT((#608,#612,#613))REPRESENTATION_CONTEXT
('ID1','3'));
#617=APPLICATION_CONTEXT(
'CONFIGURATION CONTROLLED 3D DESIGNS OF MECHANICAL PARTS AND ASSEMBLIES');
#618=APPLICATION_PROTOCOL_DEFINITION('international standard',
'config_control_design',1994,#617);
#619=DESIGN_CONTEXT('',#617,'design');
#620=MECHANICAL_CONTEXT('',#617,'mechanical');
#621=PRODUCT('UDN1Z','UDN1Z','NOT SPECIFIED',(#620));
#622=PRODUCT_DEFINITION_FORMATION_WITH_SPECIFIED_SOURCE('2','LAST_VERSION',#621,
.MADE.);
#626=PRODUCT_CATEGORY('part','');
#627=PRODUCT_RELATED_PRODUCT_CATEGORY('detail','',(#621));
#628=PRODUCT_CATEGORY_RELATIONSHIP('','',#626,#627);
#629=SECURITY_CLASSIFICATION_LEVEL('unclassified');
#630=SECURITY_CLASSIFICATION('','',#629);
#631=CC_DESIGN_SECURITY_CLASSIFICATION(#630,(#622));
#632=APPROVAL_STATUS('approved');
#633=APPROVAL(#632,'');
#634=CC_DESIGN_APPROVAL(#633,(#630,#622,#623));
#635=CALENDAR_DATE(121,13,5);
#636=COORDINATED_UNIVERSAL_TIME_OFFSET(9,0,.AHEAD.);
#637=LOCAL_TIME(11,12,4.6E1,#636);
#638=DATE_AND_TIME(#635,#637);
#639=APPROVAL_DATE_TIME(#638,#633);
#640=DATE_TIME_ROLE('creation_date');
#641=CC_DESIGN_DATE_AND_TIME_ASSIGNMENT(#638,#640,(#623));
#642=DATE_TIME_ROLE('classification_date');
#643=CC_DESIGN_DATE_AND_TIME_ASSIGNMENT(#638,#642,(#630));
#644=PERSON('UNSPECIFIED','UNSPECIFIED',$,$,$,$);
#645=ORGANIZATION('UNSPECIFIED','UNSPECIFIED','UNSPECIFIED');
#646=PERSON_AND_ORGANIZATION(#644,#645);
#647=APPROVAL_ROLE('approver');
#648=APPROVAL_PERSON_ORGANIZATION(#646,#633,#647);
#649=PERSON_AND_ORGANIZATION_ROLE('creator');
#650=CC_DESIGN_PERSON_AND_ORGANIZATION_ASSIGNMENT(#646,#649,(#622,#623));
#651=PERSON_AND_ORGANIZATION_ROLE('design_supplier');
#652=CC_DESIGN_PERSON_AND_ORGANIZATION_ASSIGNMENT(#646,#651,(#622));
#653=PERSON_AND_ORGANIZATION_ROLE('classification_officer');
#654=CC_DESIGN_PERSON_AND_ORGANIZATION_ASSIGNMENT(#646,#653,(#630));
#655=PERSON_AND_ORGANIZATION_ROLE('design_owner');
#656=CC_DESIGN_PERSON_AND_ORGANIZATION_ASSIGNMENT(#646,#655,(#621));
#5=CIRCLE('',#4,2.8E-1);
#14=CIRCLE('',#13,2.8E-1);
#23=CIRCLE('',#22,2.8E-1);
#32=CIRCLE('',#31,2.8E-1);
#73=CIRCLE('',#72,2.8E-1);
#82=CIRCLE('',#81,2.8E-1);
#91=CIRCLE('',#90,2.8E-1);
#100=CIRCLE('',#99,2.8E-1);
#286=EDGE_CURVE('',#251,#252,#5,.T.);
#288=EDGE_CURVE('',#252,#254,#9,.T.);
#290=EDGE_CURVE('',#254,#256,#14,.T.);
#292=EDGE_CURVE('',#256,#258,#18,.T.);
#294=EDGE_CURVE('',#258,#260,#23,.T.);
#296=EDGE_CURVE('',#260,#262,#27,.T.);
#298=EDGE_CURVE('',#262,#264,#32,.T.);
#300=EDGE_CURVE('',#264,#251,#36,.T.);
#311=EDGE_CURVE('',#251,#267,#40,.T.);
#313=EDGE_CURVE('',#267,#268,#73,.T.);
#315=EDGE_CURVE('',#252,#268,#68,.T.);
#326=EDGE_CURVE('',#264,#280,#44,.T.);
#328=EDGE_CURVE('',#280,#267,#77,.T.);
#340=EDGE_CURVE('',#262,#278,#48,.T.);
#342=EDGE_CURVE('',#278,#280,#82,.T.);
#354=EDGE_CURVE('',#260,#276,#52,.T.);
#356=EDGE_CURVE('',#276,#278,#86,.T.);
#368=EDGE_CURVE('',#258,#274,#56,.T.);
#370=EDGE_CURVE('',#274,#276,#91,.T.);
#382=EDGE_CURVE('',#256,#272,#60,.T.);
#384=EDGE_CURVE('',#272,#274,#95,.T.);
#396=EDGE_CURVE('',#254,#270,#64,.T.);
#398=EDGE_CURVE('',#270,#272,#100,.T.);
#411=EDGE_CURVE('',#268,#270,#104,.T.);
#432=EDGE_CURVE('',#233,#234,#108,.T.);
#434=EDGE_CURVE('',#234,#236,#112,.T.);
#436=EDGE_CURVE('',#236,#239,#116,.T.);
#438=EDGE_CURVE('',#239,#240,#120,.T.);
#440=EDGE_CURVE('',#240,#233,#124,.T.);
#444=EDGE_CURVE('',#243,#244,#128,.T.);
#446=EDGE_CURVE('',#244,#246,#132,.T.);
#448=EDGE_CURVE('',#246,#248,#136,.T.);
#450=EDGE_CURVE('',#248,#243,#140,.T.);
#461=EDGE_CURVE('',#233,#215,#144,.T.);
#463=EDGE_CURVE('',#215,#216,#164,.T.);
#465=EDGE_CURVE('',#234,#216,#160,.T.);
#476=EDGE_CURVE('',#240,#222,#148,.T.);
#478=EDGE_CURVE('',#222,#215,#168,.T.);
#490=EDGE_CURVE('',#239,#221,#152,.T.);
#492=EDGE_CURVE('',#221,#222,#172,.T.);
#504=EDGE_CURVE('',#236,#218,#156,.T.);
#506=EDGE_CURVE('',#218,#221,#176,.T.);
#519=EDGE_CURVE('',#216,#218,#180,.T.);
#543=EDGE_CURVE('',#225,#226,#184,.T.);
#545=EDGE_CURVE('',#230,#225,#188,.T.);
#547=EDGE_CURVE('',#228,#230,#192,.T.);
#549=EDGE_CURVE('',#226,#228,#196,.T.);
#560=EDGE_CURVE('',#243,#225,#200,.T.);
#563=EDGE_CURVE('',#244,#226,#212,.T.);
#574=EDGE_CURVE('',#248,#230,#204,.T.);
#587=EDGE_CURVE('',#246,#228,#208,.T.);
#608=(LENGTH_UNIT()NAMED_UNIT(*)SI_UNIT(.MILLI.,.METRE.));
#610=(NAMED_UNIT(*)PLANE_ANGLE_UNIT()SI_UNIT($,.RADIAN.));
#613=(NAMED_UNIT(*)SI_UNIT($,.STERADIAN.)SOLID_ANGLE_UNIT());
#616=ADVANCED_BREP_SHAPE_REPRESENTATION('',(#607),#615);
#623=PRODUCT_DEFINITION('design','',#622,#619);
#624=PRODUCT_DEFINITION_SHAPE('','SHAPE FOR UDN1Z.',#623);
#625=SHAPE_DEFINITION_REPRESENTATION(#624,#616);
ENDSEC;
END-ISO-10303-21;
